ISO-10303-21;
HEADER;
/* Generated by software containing ST-Developer
 * from STEP Tools, Inc. (www.steptools.com) 
 */

FILE_DESCRIPTION(
/* description */ (''),
/* implementation_level */ '2;1');

FILE_NAME(
/* name */ 'side_cover.step',
/* time_stamp */ '2024-07-12T17:57:19+09:00',
/* author */ (''),
/* organization */ (''),
/* preprocessor_version */ 'ST-DEVELOPER v20',
/* originating_system */ 'Autodesk Translation Framework v13.14.0.145',

/* authorisation */ '');

FILE_SCHEMA (('AUTOMOTIVE_DESIGN { 1 0 10303 214 3 1 1 }'));
ENDSEC;

DATA;
#10=MECHANICAL_DESIGN_GEOMETRIC_PRESENTATION_REPRESENTATION('',(#13),#409);
#11=SHAPE_REPRESENTATION_RELATIONSHIP('SRR','None',#416,#12);
#12=ADVANCED_BREP_SHAPE_REPRESENTATION('',(#14),#408);
#13=STYLED_ITEM('',(#426),#14);
#14=MANIFOLD_SOLID_BREP('\X2\30DC30C730A3\X0\1',#237);
#15=FACE_BOUND('',#48,.T.);
#16=FACE_BOUND('',#49,.T.);
#17=FACE_BOUND('',#50,.T.);
#18=FACE_BOUND('',#51,.T.);
#19=FACE_BOUND('',#57,.T.);
#20=FACE_BOUND('',#58,.T.);
#21=FACE_BOUND('',#59,.T.);
#22=FACE_BOUND('',#60,.T.);
#23=PLANE('',#266);
#24=PLANE('',#267);
#25=PLANE('',#271);
#26=PLANE('',#272);
#27=PLANE('',#273);
#28=PLANE('',#274);
#29=FACE_OUTER_BOUND('',#41,.T.);
#30=FACE_OUTER_BOUND('',#42,.T.);
#31=FACE_OUTER_BOUND('',#43,.T.);
#32=FACE_OUTER_BOUND('',#44,.T.);
#33=FACE_OUTER_BOUND('',#45,.T.);
#34=FACE_OUTER_BOUND('',#46,.T.);
#35=FACE_OUTER_BOUND('',#47,.T.);
#36=FACE_OUTER_BOUND('',#52,.T.);
#37=FACE_OUTER_BOUND('',#53,.T.);
#38=FACE_OUTER_BOUND('',#54,.T.);
#39=FACE_OUTER_BOUND('',#55,.T.);
#40=FACE_OUTER_BOUND('',#56,.T.);
#41=EDGE_LOOP('',(#159,#160,#161,#162));
#42=EDGE_LOOP('',(#163,#164,#165,#166));
#43=EDGE_LOOP('',(#167,#168,#169,#170));
#44=EDGE_LOOP('',(#171,#172,#173,#174));
#45=EDGE_LOOP('',(#175,#176,#177,#178));
#46=EDGE_LOOP('',(#179,#180,#181,#182));
#47=EDGE_LOOP('',(#183,#184,#185,#186,#187,#188));
#48=EDGE_LOOP('',(#189));
#49=EDGE_LOOP('',(#190));
#50=EDGE_LOOP('',(#191));
#51=EDGE_LOOP('',(#192));
#52=EDGE_LOOP('',(#193,#194,#195,#196));
#53=EDGE_LOOP('',(#197,#198,#199,#200));
#54=EDGE_LOOP('',(#201,#202,#203,#204));
#55=EDGE_LOOP('',(#205,#206,#207,#208));
#56=EDGE_LOOP('',(#209,#210,#211,#212,#213,#214));
#57=EDGE_LOOP('',(#215));
#58=EDGE_LOOP('',(#216));
#59=EDGE_LOOP('',(#217));
#60=EDGE_LOOP('',(#218));
#61=LINE('',#348,#79);
#62=LINE('',#354,#80);
#63=LINE('',#360,#81);
#64=LINE('',#366,#82);
#65=LINE('',#373,#83);
#66=LINE('',#376,#84);
#67=LINE('',#379,#85);
#68=LINE('',#381,#86);
#69=LINE('',#382,#87);
#70=LINE('',#385,#88);
#71=LINE('',#389,#89);
#72=LINE('',#390,#90);
#73=LINE('',#393,#91);
#74=LINE('',#396,#92);
#75=LINE('',#399,#93);
#76=LINE('',#400,#94);
#77=LINE('',#402,#95);
#78=LINE('',#404,#96);
#79=VECTOR('',#281,1.6);
#80=VECTOR('',#288,1.6);
#81=VECTOR('',#295,1.6);
#82=VECTOR('',#302,1.6);
#83=VECTOR('',#309,10.);
#84=VECTOR('',#312,10.);
#85=VECTOR('',#315,10.);
#86=VECTOR('',#316,10.);
#87=VECTOR('',#317,10.);
#88=VECTOR('',#320,10.);
#89=VECTOR('',#323,10.);
#90=VECTOR('',#324,10.);
#91=VECTOR('',#327,10.);
#92=VECTOR('',#330,10.);
#93=VECTOR('',#333,10.);
#94=VECTOR('',#334,10.);
#95=VECTOR('',#337,10.);
#96=VECTOR('',#340,10.);
#97=CIRCLE('',#252,1.6);
#98=CIRCLE('',#253,1.6);
#99=CIRCLE('',#255,1.6);
#100=CIRCLE('',#256,1.6);
#101=CIRCLE('',#258,1.6);
#102=CIRCLE('',#259,1.6);
#103=CIRCLE('',#261,1.6);
#104=CIRCLE('',#262,1.6);
#105=CIRCLE('',#264,10.);
#106=CIRCLE('',#265,10.);
#107=CIRCLE('',#268,10.);
#108=CIRCLE('',#270,10.);
#109=VERTEX_POINT('',#345);
#110=VERTEX_POINT('',#347);
#111=VERTEX_POINT('',#351);
#112=VERTEX_POINT('',#353);
#113=VERTEX_POINT('',#357);
#114=VERTEX_POINT('',#359);
#115=VERTEX_POINT('',#363);
#116=VERTEX_POINT('',#365);
#117=VERTEX_POINT('',#369);
#118=VERTEX_POINT('',#370);
#119=VERTEX_POINT('',#372);
#120=VERTEX_POINT('',#374);
#121=VERTEX_POINT('',#378);
#122=VERTEX_POINT('',#380);
#123=VERTEX_POINT('',#384);
#124=VERTEX_POINT('',#386);
#125=VERTEX_POINT('',#388);
#126=VERTEX_POINT('',#392);
#127=VERTEX_POINT('',#394);
#128=VERTEX_POINT('',#398);
#129=EDGE_CURVE('',#109,#109,#97,.T.);
#130=EDGE_CURVE('',#109,#110,#61,.T.);
#131=EDGE_CURVE('',#110,#110,#98,.T.);
#132=EDGE_CURVE('',#111,#111,#99,.T.);
#133=EDGE_CURVE('',#111,#112,#62,.T.);
#134=EDGE_CURVE('',#112,#112,#100,.T.);
#135=EDGE_CURVE('',#113,#113,#101,.T.);
#136=EDGE_CURVE('',#113,#114,#63,.T.);
#137=EDGE_CURVE('',#114,#114,#102,.T.);
#138=EDGE_CURVE('',#115,#115,#103,.T.);
#139=EDGE_CURVE('',#115,#116,#64,.T.);
#140=EDGE_CURVE('',#116,#116,#104,.T.);
#141=EDGE_CURVE('',#117,#118,#105,.T.);
#142=EDGE_CURVE('',#118,#119,#65,.T.);
#143=EDGE_CURVE('',#119,#120,#106,.T.);
#144=EDGE_CURVE('',#120,#117,#66,.T.);
#145=EDGE_CURVE('',#121,#118,#67,.T.);
#146=EDGE_CURVE('',#122,#121,#68,.T.);
#147=EDGE_CURVE('',#122,#119,#69,.T.);
#148=EDGE_CURVE('',#117,#123,#70,.T.);
#149=EDGE_CURVE('',#124,#123,#107,.T.);
#150=EDGE_CURVE('',#124,#125,#71,.T.);
#151=EDGE_CURVE('',#125,#121,#72,.T.);
#152=EDGE_CURVE('',#123,#126,#73,.T.);
#153=EDGE_CURVE('',#126,#127,#108,.T.);
#154=EDGE_CURVE('',#127,#124,#74,.T.);
#155=EDGE_CURVE('',#127,#128,#75,.T.);
#156=EDGE_CURVE('',#128,#125,#76,.T.);
#157=EDGE_CURVE('',#120,#126,#77,.T.);
#158=EDGE_CURVE('',#128,#122,#78,.T.);
#159=ORIENTED_EDGE('',*,*,#129,.F.);
#160=ORIENTED_EDGE('',*,*,#130,.T.);
#161=ORIENTED_EDGE('',*,*,#131,.F.);
#162=ORIENTED_EDGE('',*,*,#130,.F.);
#163=ORIENTED_EDGE('',*,*,#132,.F.);
#164=ORIENTED_EDGE('',*,*,#133,.T.);
#165=ORIENTED_EDGE('',*,*,#134,.F.);
#166=ORIENTED_EDGE('',*,*,#133,.F.);
#167=ORIENTED_EDGE('',*,*,#135,.F.);
#168=ORIENTED_EDGE('',*,*,#136,.T.);
#169=ORIENTED_EDGE('',*,*,#137,.F.);
#170=ORIENTED_EDGE('',*,*,#136,.F.);
#171=ORIENTED_EDGE('',*,*,#138,.F.);
#172=ORIENTED_EDGE('',*,*,#139,.T.);
#173=ORIENTED_EDGE('',*,*,#140,.F.);
#174=ORIENTED_EDGE('',*,*,#139,.F.);
#175=ORIENTED_EDGE('',*,*,#141,.T.);
#176=ORIENTED_EDGE('',*,*,#142,.T.);
#177=ORIENTED_EDGE('',*,*,#143,.T.);
#178=ORIENTED_EDGE('',*,*,#144,.T.);
#179=ORIENTED_EDGE('',*,*,#142,.F.);
#180=ORIENTED_EDGE('',*,*,#145,.F.);
#181=ORIENTED_EDGE('',*,*,#146,.F.);
#182=ORIENTED_EDGE('',*,*,#147,.T.);
#183=ORIENTED_EDGE('',*,*,#141,.F.);
#184=ORIENTED_EDGE('',*,*,#148,.T.);
#185=ORIENTED_EDGE('',*,*,#149,.F.);
#186=ORIENTED_EDGE('',*,*,#150,.T.);
#187=ORIENTED_EDGE('',*,*,#151,.T.);
#188=ORIENTED_EDGE('',*,*,#145,.T.);
#189=ORIENTED_EDGE('',*,*,#129,.T.);
#190=ORIENTED_EDGE('',*,*,#132,.T.);
#191=ORIENTED_EDGE('',*,*,#135,.T.);
#192=ORIENTED_EDGE('',*,*,#138,.T.);
#193=ORIENTED_EDGE('',*,*,#149,.T.);
#194=ORIENTED_EDGE('',*,*,#152,.T.);
#195=ORIENTED_EDGE('',*,*,#153,.T.);
#196=ORIENTED_EDGE('',*,*,#154,.T.);
#197=ORIENTED_EDGE('',*,*,#154,.F.);
#198=ORIENTED_EDGE('',*,*,#155,.T.);
#199=ORIENTED_EDGE('',*,*,#156,.T.);
#200=ORIENTED_EDGE('',*,*,#150,.F.);
#201=ORIENTED_EDGE('',*,*,#144,.F.);
#202=ORIENTED_EDGE('',*,*,#157,.T.);
#203=ORIENTED_EDGE('',*,*,#152,.F.);
#204=ORIENTED_EDGE('',*,*,#148,.F.);
#205=ORIENTED_EDGE('',*,*,#158,.T.);
#206=ORIENTED_EDGE('',*,*,#146,.T.);
#207=ORIENTED_EDGE('',*,*,#151,.F.);
#208=ORIENTED_EDGE('',*,*,#156,.F.);
#209=ORIENTED_EDGE('',*,*,#143,.F.);
#210=ORIENTED_EDGE('',*,*,#147,.F.);
#211=ORIENTED_EDGE('',*,*,#158,.F.);
#212=ORIENTED_EDGE('',*,*,#155,.F.);
#213=ORIENTED_EDGE('',*,*,#153,.F.);
#214=ORIENTED_EDGE('',*,*,#157,.F.);
#215=ORIENTED_EDGE('',*,*,#131,.T.);
#216=ORIENTED_EDGE('',*,*,#134,.T.);
#217=ORIENTED_EDGE('',*,*,#137,.T.);
#218=ORIENTED_EDGE('',*,*,#140,.T.);
#219=CYLINDRICAL_SURFACE('',#251,1.6);
#220=CYLINDRICAL_SURFACE('',#254,1.6);
#221=CYLINDRICAL_SURFACE('',#257,1.6);
#222=CYLINDRICAL_SURFACE('',#260,1.6);
#223=CYLINDRICAL_SURFACE('',#263,10.);
#224=CYLINDRICAL_SURFACE('',#269,10.);
#225=ADVANCED_FACE('',(#29),#219,.F.);
#226=ADVANCED_FACE('',(#30),#220,.F.);
#227=ADVANCED_FACE('',(#31),#221,.F.);
#228=ADVANCED_FACE('',(#32),#222,.F.);
#229=ADVANCED_FACE('',(#33),#223,.T.);
#230=ADVANCED_FACE('',(#34),#23,.T.);
#231=ADVANCED_FACE('',(#35,#15,#16,#17,#18),#24,.T.);
#232=ADVANCED_FACE('',(#36),#224,.T.);
#233=ADVANCED_FACE('',(#37),#25,.T.);
#234=ADVANCED_FACE('',(#38),#26,.T.);
#235=ADVANCED_FACE('',(#39),#27,.T.);
#236=ADVANCED_FACE('',(#40,#19,#20,#21,#22),#28,.F.);
#237=CLOSED_SHELL('',(#225,#226,#227,#228,#229,#230,#231,#232,#233,#234,
#235,#236));
#238=DERIVED_UNIT_ELEMENT(#240,1.);
#239=DERIVED_UNIT_ELEMENT(#411,-3.);
#240=(
MASS_UNIT()
NAMED_UNIT(*)
SI_UNIT(.KILO.,.GRAM.)
);
#241=DERIVED_UNIT((#238,#239));
#242=MEASURE_REPRESENTATION_ITEM('density measure',
POSITIVE_RATIO_MEASURE(7850.),#241);
#243=PROPERTY_DEFINITION_REPRESENTATION(#248,#245);
#244=PROPERTY_DEFINITION_REPRESENTATION(#249,#246);
#245=REPRESENTATION('material name',(#247),#408);
#246=REPRESENTATION('density',(#242),#408);
#247=DESCRIPTIVE_REPRESENTATION_ITEM('\X2\92FC\X0\','\X2\92FC\X0\');
#248=PROPERTY_DEFINITION('material property','material name',#418);
#249=PROPERTY_DEFINITION('material property','density of part',#418);
#250=AXIS2_PLACEMENT_3D('',#343,#275,#276);
#251=AXIS2_PLACEMENT_3D('',#344,#277,#278);
#252=AXIS2_PLACEMENT_3D('',#346,#279,#280);
#253=AXIS2_PLACEMENT_3D('',#349,#282,#283);
#254=AXIS2_PLACEMENT_3D('',#350,#284,#285);
#255=AXIS2_PLACEMENT_3D('',#352,#286,#287);
#256=AXIS2_PLACEMENT_3D('',#355,#289,#290);
#257=AXIS2_PLACEMENT_3D('',#356,#291,#292);
#258=AXIS2_PLACEMENT_3D('',#358,#293,#294);
#259=AXIS2_PLACEMENT_3D('',#361,#296,#297);
#260=AXIS2_PLACEMENT_3D('',#362,#298,#299);
#261=AXIS2_PLACEMENT_3D('',#364,#300,#301);
#262=AXIS2_PLACEMENT_3D('',#367,#303,#304);
#263=AXIS2_PLACEMENT_3D('',#368,#305,#306);
#264=AXIS2_PLACEMENT_3D('',#371,#307,#308);
#265=AXIS2_PLACEMENT_3D('',#375,#310,#311);
#266=AXIS2_PLACEMENT_3D('',#377,#313,#314);
#267=AXIS2_PLACEMENT_3D('',#383,#318,#319);
#268=AXIS2_PLACEMENT_3D('',#387,#321,#322);
#269=AXIS2_PLACEMENT_3D('',#391,#325,#326);
#270=AXIS2_PLACEMENT_3D('',#395,#328,#329);
#271=AXIS2_PLACEMENT_3D('',#397,#331,#332);
#272=AXIS2_PLACEMENT_3D('',#401,#335,#336);
#273=AXIS2_PLACEMENT_3D('',#403,#338,#339);
#274=AXIS2_PLACEMENT_3D('',#405,#341,#342);
#275=DIRECTION('axis',(0.,0.,1.));
#276=DIRECTION('refdir',(1.,0.,0.));
#277=DIRECTION('center_axis',(0.,0.,-1.));
#278=DIRECTION('ref_axis',(1.,0.,0.));
#279=DIRECTION('center_axis',(0.,0.,-1.));
#280=DIRECTION('ref_axis',(1.,0.,0.));
#281=DIRECTION('',(0.,0.,-1.));
#282=DIRECTION('center_axis',(0.,0.,1.));
#283=DIRECTION('ref_axis',(1.,0.,0.));
#284=DIRECTION('center_axis',(0.,0.,-1.));
#285=DIRECTION('ref_axis',(1.,0.,0.));
#286=DIRECTION('center_axis',(0.,0.,-1.));
#287=DIRECTION('ref_axis',(1.,0.,0.));
#288=DIRECTION('',(0.,0.,-1.));
#289=DIRECTION('center_axis',(0.,0.,1.));
#290=DIRECTION('ref_axis',(1.,0.,0.));
#291=DIRECTION('center_axis',(0.,0.,-1.));
#292=DIRECTION('ref_axis',(1.,0.,0.));
#293=DIRECTION('center_axis',(0.,0.,-1.));
#294=DIRECTION('ref_axis',(1.,0.,0.));
#295=DIRECTION('',(0.,0.,-1.));
#296=DIRECTION('center_axis',(0.,0.,1.));
#297=DIRECTION('ref_axis',(1.,0.,0.));
#298=DIRECTION('center_axis',(0.,0.,-1.));
#299=DIRECTION('ref_axis',(1.,0.,0.));
#300=DIRECTION('center_axis',(0.,0.,-1.));
#301=DIRECTION('ref_axis',(1.,0.,0.));
#302=DIRECTION('',(0.,0.,-1.));
#303=DIRECTION('center_axis',(0.,0.,1.));
#304=DIRECTION('ref_axis',(1.,0.,0.));
#305=DIRECTION('center_axis',(0.,0.,1.));
#306=DIRECTION('ref_axis',(0.707106781186547,0.707106781186547,0.));
#307=DIRECTION('center_axis',(0.,0.,-1.));
#308=DIRECTION('ref_axis',(0.707106781186547,0.707106781186547,0.));
#309=DIRECTION('',(0.,0.,-1.));
#310=DIRECTION('center_axis',(0.,0.,1.));
#311=DIRECTION('ref_axis',(0.707106781186547,0.707106781186547,0.));
#312=DIRECTION('',(0.,0.,1.));
#313=DIRECTION('center_axis',(1.,0.,0.));
#314=DIRECTION('ref_axis',(0.,1.,0.));
#315=DIRECTION('',(0.,1.,0.));
#316=DIRECTION('',(0.,0.,1.));
#317=DIRECTION('',(0.,1.,0.));
#318=DIRECTION('center_axis',(0.,0.,1.));
#319=DIRECTION('ref_axis',(1.,0.,0.));
#320=DIRECTION('',(-1.,0.,0.));
#321=DIRECTION('center_axis',(0.,0.,-1.));
#322=DIRECTION('ref_axis',(-0.707106781186547,0.707106781186547,0.));
#323=DIRECTION('',(0.,-1.,0.));
#324=DIRECTION('',(1.,0.,0.));
#325=DIRECTION('center_axis',(0.,0.,1.));
#326=DIRECTION('ref_axis',(-0.707106781186547,0.707106781186547,0.));
#327=DIRECTION('',(0.,0.,-1.));
#328=DIRECTION('center_axis',(0.,0.,1.));
#329=DIRECTION('ref_axis',(-0.707106781186547,0.707106781186547,0.));
#330=DIRECTION('',(0.,0.,1.));
#331=DIRECTION('center_axis',(-1.,0.,0.));
#332=DIRECTION('ref_axis',(0.,-1.,0.));
#333=DIRECTION('',(0.,-1.,0.));
#334=DIRECTION('',(0.,0.,1.));
#335=DIRECTION('center_axis',(0.,1.,0.));
#336=DIRECTION('ref_axis',(-1.,0.,0.));
#337=DIRECTION('',(-1.,0.,0.));
#338=DIRECTION('center_axis',(0.,-1.,0.));
#339=DIRECTION('ref_axis',(1.,0.,0.));
#340=DIRECTION('',(1.,0.,0.));
#341=DIRECTION('center_axis',(0.,0.,1.));
#342=DIRECTION('ref_axis',(1.,0.,0.));
#343=CARTESIAN_POINT('',(0.,0.,0.));
#344=CARTESIAN_POINT('Origin',(69.,94.9109806331999,3.));
#345=CARTESIAN_POINT('',(67.4,94.9109806331999,3.));
#346=CARTESIAN_POINT('Origin',(69.,94.9109806331999,3.));
#347=CARTESIAN_POINT('',(67.4,94.9109806331999,0.));
#348=CARTESIAN_POINT('',(67.4,94.9109806331999,3.));
#349=CARTESIAN_POINT('Origin',(69.,94.9109806331999,0.));
#350=CARTESIAN_POINT('Origin',(-70.,10.9109806331999,3.));
#351=CARTESIAN_POINT('',(-71.6,10.9109806331999,3.));
#352=CARTESIAN_POINT('Origin',(-70.,10.9109806331999,3.));
#353=CARTESIAN_POINT('',(-71.6,10.9109806331999,0.));
#354=CARTESIAN_POINT('',(-71.6,10.9109806331999,3.));
#355=CARTESIAN_POINT('Origin',(-70.,10.9109806331999,0.));
#356=CARTESIAN_POINT('Origin',(-69.,94.9109806332,3.));
#357=CARTESIAN_POINT('',(-70.6,94.9109806332,3.));
#358=CARTESIAN_POINT('Origin',(-69.,94.9109806332,3.));
#359=CARTESIAN_POINT('',(-70.6,94.9109806332,0.));
#360=CARTESIAN_POINT('',(-70.6,94.9109806332,3.));
#361=CARTESIAN_POINT('Origin',(-69.,94.9109806332,0.));
#362=CARTESIAN_POINT('Origin',(70.,10.9109806331999,3.));
#363=CARTESIAN_POINT('',(68.4,10.9109806331999,3.));
#364=CARTESIAN_POINT('Origin',(70.,10.9109806331999,3.));
#365=CARTESIAN_POINT('',(68.4,10.9109806331999,0.));
#366=CARTESIAN_POINT('',(68.4,10.9109806331999,3.));
#367=CARTESIAN_POINT('Origin',(70.,10.9109806331999,0.));
#368=CARTESIAN_POINT('Origin',(65.,90.9109806331999,0.));
#369=CARTESIAN_POINT('',(65.,100.9109806332,3.));
#370=CARTESIAN_POINT('',(75.,90.9109806331999,3.));
#371=CARTESIAN_POINT('Origin',(65.,90.9109806331999,3.));
#372=CARTESIAN_POINT('',(75.,90.9109806331999,0.));
#373=CARTESIAN_POINT('',(75.,90.9109806331999,0.));
#374=CARTESIAN_POINT('',(65.,100.9109806332,0.));
#375=CARTESIAN_POINT('Origin',(65.,90.9109806331999,0.));
#376=CARTESIAN_POINT('',(65.,100.9109806332,0.));
#377=CARTESIAN_POINT('Origin',(75.,0.910980633199934,0.));
#378=CARTESIAN_POINT('',(75.,0.910980633199934,3.));
#379=CARTESIAN_POINT('',(75.,0.910980633199934,3.));
#380=CARTESIAN_POINT('',(75.,0.910980633199934,0.));
#381=CARTESIAN_POINT('',(75.,0.910980633199934,0.));
#382=CARTESIAN_POINT('',(75.,0.910980633199934,0.));
#383=CARTESIAN_POINT('Origin',(0.,50.9109806331999,3.));
#384=CARTESIAN_POINT('',(-65.,100.9109806332,3.));
#385=CARTESIAN_POINT('',(75.,100.9109806332,3.));
#386=CARTESIAN_POINT('',(-75.,90.9109806331999,3.));
#387=CARTESIAN_POINT('Origin',(-65.,90.9109806331999,3.));
#388=CARTESIAN_POINT('',(-75.,0.910980633199934,3.));
#389=CARTESIAN_POINT('',(-75.,100.9109806332,3.));
#390=CARTESIAN_POINT('',(-75.,0.910980633199934,3.));
#391=CARTESIAN_POINT('Origin',(-65.,90.9109806331999,0.));
#392=CARTESIAN_POINT('',(-65.,100.9109806332,0.));
#393=CARTESIAN_POINT('',(-65.,100.9109806332,0.));
#394=CARTESIAN_POINT('',(-75.,90.9109806331999,0.));
#395=CARTESIAN_POINT('Origin',(-65.,90.9109806331999,0.));
#396=CARTESIAN_POINT('',(-75.,90.9109806331999,0.));
#397=CARTESIAN_POINT('Origin',(-75.,100.9109806332,0.));
#398=CARTESIAN_POINT('',(-75.,0.910980633199934,0.));
#399=CARTESIAN_POINT('',(-75.,100.9109806332,0.));
#400=CARTESIAN_POINT('',(-75.,0.910980633199934,0.));
#401=CARTESIAN_POINT('Origin',(75.,100.9109806332,0.));
#402=CARTESIAN_POINT('',(75.,100.9109806332,0.));
#403=CARTESIAN_POINT('Origin',(-75.,0.910980633199934,0.));
#404=CARTESIAN_POINT('',(-75.,0.910980633199934,0.));
#405=CARTESIAN_POINT('Origin',(0.,50.9109806331999,0.));
#406=UNCERTAINTY_MEASURE_WITH_UNIT(LENGTH_MEASURE(0.01),#410,
'DISTANCE_ACCURACY_VALUE',
'Maximum model space distance between geometric entities at asserted c
onnectivities');
#407=UNCERTAINTY_MEASURE_WITH_UNIT(LENGTH_MEASURE(0.01),#410,
'DISTANCE_ACCURACY_VALUE',
'Maximum model space distance between geometric entities at asserted c
onnectivities');
#408=(
GEOMETRIC_REPRESENTATION_CONTEXT(3)
GLOBAL_UNCERTAINTY_ASSIGNED_CONTEXT((#406))
GLOBAL_UNIT_ASSIGNED_CONTEXT((#410,#412,#413))
REPRESENTATION_CONTEXT('','3D')
);
#409=(
GEOMETRIC_REPRESENTATION_CONTEXT(3)
GLOBAL_UNCERTAINTY_ASSIGNED_CONTEXT((#407))
GLOBAL_UNIT_ASSIGNED_CONTEXT((#410,#412,#413))
REPRESENTATION_CONTEXT('','3D')
);
#410=(
LENGTH_UNIT()
NAMED_UNIT(*)
SI_UNIT(.MILLI.,.METRE.)
);
#411=(
LENGTH_UNIT()
NAMED_UNIT(*)
SI_UNIT($,.METRE.)
);
#412=(
NAMED_UNIT(*)
PLANE_ANGLE_UNIT()
SI_UNIT($,.RADIAN.)
);
#413=(
NAMED_UNIT(*)
SI_UNIT($,.STERADIAN.)
SOLID_ANGLE_UNIT()
);
#414=SHAPE_DEFINITION_REPRESENTATION(#415,#416);
#415=PRODUCT_DEFINITION_SHAPE('',$,#418);
#416=SHAPE_REPRESENTATION('',(#250),#408);
#417=PRODUCT_DEFINITION_CONTEXT('part definition',#422,'design');
#418=PRODUCT_DEFINITION('side_cover','side_cover v5',#419,#417);
#419=PRODUCT_DEFINITION_FORMATION('',$,#424);
#420=PRODUCT_RELATED_PRODUCT_CATEGORY('side_cover v5','side_cover v5',(#424));
#421=APPLICATION_PROTOCOL_DEFINITION('international standard',
'automotive_design',2009,#422);
#422=APPLICATION_CONTEXT(
'Core Data for Automotive Mechanical Design Process');
#423=PRODUCT_CONTEXT('part definition',#422,'mechanical');
#424=PRODUCT('side_cover','side_cover v5',$,(#423));
#425=PRESENTATION_STYLE_ASSIGNMENT((#427));
#426=PRESENTATION_STYLE_ASSIGNMENT((#428));
#427=SURFACE_STYLE_USAGE(.BOTH.,#429);
#428=SURFACE_STYLE_USAGE(.BOTH.,#430);
#429=SURFACE_SIDE_STYLE('',(#431));
#430=SURFACE_SIDE_STYLE('',(#432));
#431=SURFACE_STYLE_FILL_AREA(#433);
#432=SURFACE_STYLE_FILL_AREA(#434);
#433=FILL_AREA_STYLE('\X2\92FC\X0\ - \X2\30B530C630F3\X0\',(#435));
#434=FILL_AREA_STYLE('\X2\30A230AF30EA30EB\X0\(\X2\30AF30EA30A2\X0\)',(#436));
#435=FILL_AREA_STYLE_COLOUR('\X2\92FC\X0\ - \X2\30B530C630F3\X0\',#437);
#436=FILL_AREA_STYLE_COLOUR('\X2\30A230AF30EA30EB\X0\(\X2\30AF30EA30A2\X0\)',
#438);
#437=COLOUR_RGB('\X2\92FC\X0\ - \X2\30B530C630F3\X0\',0.627450980392157,
0.627450980392157,0.627450980392157);
#438=COLOUR_RGB('\X2\30A230AF30EA30EB\X0\(\X2\30AF30EA30A2\X0\)',0.964705882352941,
0.964705882352941,0.952941176470588);
ENDSEC;
END-ISO-10303-21;
