ISO-10303-21;
HEADER;
/* Generated by software containing ST-Developer
 * from STEP Tools, Inc. (www.steptools.com) 
 */

FILE_DESCRIPTION(
/* description */ (''),
/* implementation_level */ '2;1');

FILE_NAME(
/* name */ 'rubber_feet.step',
/* time_stamp */ '2024-07-12T16:31:28+09:00',
/* author */ (''),
/* organization */ (''),
/* preprocessor_version */ 'ST-DEVELOPER v20',
/* originating_system */ 'Autodesk Translation Framework v13.14.0.145',

/* authorisation */ '');

FILE_SCHEMA (('AUTOMOTIVE_DESIGN { 1 0 10303 214 3 1 1 }'));
ENDSEC;

DATA;
#10=MECHANICAL_DESIGN_GEOMETRIC_PRESENTATION_REPRESENTATION('',(#13),#122);
#11=SHAPE_REPRESENTATION_RELATIONSHIP('SRR','None',#129,#12);
#12=ADVANCED_BREP_SHAPE_REPRESENTATION('',(#14),#121);
#13=STYLED_ITEM('',(#139),#14);
#14=MANIFOLD_SOLID_BREP('\X2\30DC30C730A3\X0\1',#60);
#15=PLANE('',#81);
#16=PLANE('',#82);
#17=LINE('',#116,#18);
#18=VECTOR('',#99,5.);
#19=CONICAL_SURFACE('',#79,5.,0.141897054604164);
#20=FACE_OUTER_BOUND('',#24,.T.);
#21=FACE_OUTER_BOUND('',#25,.T.);
#22=FACE_OUTER_BOUND('',#26,.T.);
#23=FACE_OUTER_BOUND('',#27,.T.);
#24=EDGE_LOOP('',(#43,#44,#45,#46,#47));
#25=EDGE_LOOP('',(#48,#49,#50,#51,#52));
#26=EDGE_LOOP('',(#53));
#27=EDGE_LOOP('',(#54));
#28=CIRCLE('',#75,4.6226540919661);
#29=CIRCLE('',#76,1.);
#30=CIRCLE('',#77,3.63270459830493);
#31=CIRCLE('',#78,4.6226540919661);
#32=CIRCLE('',#80,5.5);
#33=VERTEX_POINT('',#106);
#34=VERTEX_POINT('',#107);
#35=VERTEX_POINT('',#109);
#36=VERTEX_POINT('',#114);
#37=EDGE_CURVE('',#33,#34,#28,.T.);
#38=EDGE_CURVE('',#34,#35,#29,.T.);
#39=EDGE_CURVE('',#35,#35,#30,.T.);
#40=EDGE_CURVE('',#34,#33,#31,.T.);
#41=EDGE_CURVE('',#36,#36,#32,.T.);
#42=EDGE_CURVE('',#36,#33,#17,.T.);
#43=ORIENTED_EDGE('',*,*,#37,.T.);
#44=ORIENTED_EDGE('',*,*,#38,.T.);
#45=ORIENTED_EDGE('',*,*,#39,.T.);
#46=ORIENTED_EDGE('',*,*,#38,.F.);
#47=ORIENTED_EDGE('',*,*,#40,.T.);
#48=ORIENTED_EDGE('',*,*,#41,.F.);
#49=ORIENTED_EDGE('',*,*,#42,.T.);
#50=ORIENTED_EDGE('',*,*,#40,.F.);
#51=ORIENTED_EDGE('',*,*,#37,.F.);
#52=ORIENTED_EDGE('',*,*,#42,.F.);
#53=ORIENTED_EDGE('',*,*,#39,.F.);
#54=ORIENTED_EDGE('',*,*,#41,.T.);
#55=TOROIDAL_SURFACE('',#74,3.63270459830493,1.);
#56=ADVANCED_FACE('',(#20),#55,.T.);
#57=ADVANCED_FACE('',(#21),#19,.T.);
#58=ADVANCED_FACE('',(#22),#15,.F.);
#59=ADVANCED_FACE('',(#23),#16,.T.);
#60=CLOSED_SHELL('',(#56,#57,#58,#59));
#61=DERIVED_UNIT_ELEMENT(#63,1.);
#62=DERIVED_UNIT_ELEMENT(#124,-3.);
#63=(
MASS_UNIT()
NAMED_UNIT(*)
SI_UNIT(.KILO.,.GRAM.)
);
#64=DERIVED_UNIT((#61,#62));
#65=MEASURE_REPRESENTATION_ITEM('density measure',
POSITIVE_RATIO_MEASURE(7850.),#64);
#66=PROPERTY_DEFINITION_REPRESENTATION(#71,#68);
#67=PROPERTY_DEFINITION_REPRESENTATION(#72,#69);
#68=REPRESENTATION('material name',(#70),#121);
#69=REPRESENTATION('density',(#65),#121);
#70=DESCRIPTIVE_REPRESENTATION_ITEM('\X2\92FC\X0\','\X2\92FC\X0\');
#71=PROPERTY_DEFINITION('material property','material name',#131);
#72=PROPERTY_DEFINITION('material property','density of part',#131);
#73=AXIS2_PLACEMENT_3D('',#104,#83,#84);
#74=AXIS2_PLACEMENT_3D('',#105,#85,#86);
#75=AXIS2_PLACEMENT_3D('',#108,#87,#88);
#76=AXIS2_PLACEMENT_3D('',#110,#89,#90);
#77=AXIS2_PLACEMENT_3D('',#111,#91,#92);
#78=AXIS2_PLACEMENT_3D('',#112,#93,#94);
#79=AXIS2_PLACEMENT_3D('',#113,#95,#96);
#80=AXIS2_PLACEMENT_3D('',#115,#97,#98);
#81=AXIS2_PLACEMENT_3D('',#117,#100,#101);
#82=AXIS2_PLACEMENT_3D('',#118,#102,#103);
#83=DIRECTION('axis',(0.,0.,1.));
#84=DIRECTION('refdir',(1.,0.,0.));
#85=DIRECTION('center_axis',(0.,1.,0.));
#86=DIRECTION('ref_axis',(0.,0.,1.));
#87=DIRECTION('center_axis',(0.,-1.,0.));
#88=DIRECTION('ref_axis',(1.,0.,-6.12323399573677E-17));
#89=DIRECTION('center_axis',(-1.,0.,1.22464679914735E-16));
#90=DIRECTION('ref_axis',(-1.22464679914735E-16,0.,-1.));
#91=DIRECTION('center_axis',(0.,1.,0.));
#92=DIRECTION('ref_axis',(1.,0.,0.));
#93=DIRECTION('center_axis',(0.,-1.,0.));
#94=DIRECTION('ref_axis',(1.,0.,-6.12323399573677E-17));
#95=DIRECTION('center_axis',(0.,1.,0.));
#96=DIRECTION('ref_axis',(1.,0.,0.));
#97=DIRECTION('center_axis',(0.,1.,0.));
#98=DIRECTION('ref_axis',(1.,0.,0.));
#99=DIRECTION('',(0.141421356237309,-0.989949493661167,-1.73191211247099E-17));
#100=DIRECTION('center_axis',(0.,1.,0.));
#101=DIRECTION('ref_axis',(1.,0.,0.));
#102=DIRECTION('center_axis',(0.,1.,0.));
#103=DIRECTION('ref_axis',(1.,0.,0.));
#104=CARTESIAN_POINT('',(0.,0.,0.));
#105=CARTESIAN_POINT('Origin',(0.,1.,0.));
#106=CARTESIAN_POINT('',(-4.6226540919661,0.85857864376269,0.));
#107=CARTESIAN_POINT('',(-5.6611185372917E-16,0.85857864376269,-4.6226540919661));
#108=CARTESIAN_POINT('Origin',(0.,0.85857864376269,2.83055926864585E-16));
#109=CARTESIAN_POINT('',(-4.44878005856201E-16,0.,-3.63270459830493));
#110=CARTESIAN_POINT('Origin',(-4.44878005856201E-16,1.,-3.63270459830493));
#111=CARTESIAN_POINT('Origin',(0.,0.,0.));
#112=CARTESIAN_POINT('Origin',(0.,0.85857864376269,2.83055926864585E-16));
#113=CARTESIAN_POINT('Origin',(0.,3.5,0.));
#114=CARTESIAN_POINT('',(-5.5,7.,6.73555739531044E-16));
#115=CARTESIAN_POINT('Origin',(0.,7.,0.));
#116=CARTESIAN_POINT('',(-5.,3.5,6.12323399573677E-16));
#117=CARTESIAN_POINT('Origin',(0.,0.,0.));
#118=CARTESIAN_POINT('Origin',(0.,7.,0.));
#119=UNCERTAINTY_MEASURE_WITH_UNIT(LENGTH_MEASURE(0.01),#123,
'DISTANCE_ACCURACY_VALUE',
'Maximum model space distance between geometric entities at asserted c
onnectivities');
#120=UNCERTAINTY_MEASURE_WITH_UNIT(LENGTH_MEASURE(0.01),#123,
'DISTANCE_ACCURACY_VALUE',
'Maximum model space distance between geometric entities at asserted c
onnectivities');
#121=(
GEOMETRIC_REPRESENTATION_CONTEXT(3)
GLOBAL_UNCERTAINTY_ASSIGNED_CONTEXT((#119))
GLOBAL_UNIT_ASSIGNED_CONTEXT((#123,#125,#126))
REPRESENTATION_CONTEXT('','3D')
);
#122=(
GEOMETRIC_REPRESENTATION_CONTEXT(3)
GLOBAL_UNCERTAINTY_ASSIGNED_CONTEXT((#120))
GLOBAL_UNIT_ASSIGNED_CONTEXT((#123,#125,#126))
REPRESENTATION_CONTEXT('','3D')
);
#123=(
LENGTH_UNIT()
NAMED_UNIT(*)
SI_UNIT(.MILLI.,.METRE.)
);
#124=(
LENGTH_UNIT()
NAMED_UNIT(*)
SI_UNIT($,.METRE.)
);
#125=(
NAMED_UNIT(*)
PLANE_ANGLE_UNIT()
SI_UNIT($,.RADIAN.)
);
#126=(
NAMED_UNIT(*)
SI_UNIT($,.STERADIAN.)
SOLID_ANGLE_UNIT()
);
#127=SHAPE_DEFINITION_REPRESENTATION(#128,#129);
#128=PRODUCT_DEFINITION_SHAPE('',$,#131);
#129=SHAPE_REPRESENTATION('',(#73),#121);
#130=PRODUCT_DEFINITION_CONTEXT('part definition',#135,'design');
#131=PRODUCT_DEFINITION('rubber_feet','rubber_feet v2',#132,#130);
#132=PRODUCT_DEFINITION_FORMATION('',$,#137);
#133=PRODUCT_RELATED_PRODUCT_CATEGORY('rubber_feet v2','rubber_feet v2',
(#137));
#134=APPLICATION_PROTOCOL_DEFINITION('international standard',
'automotive_design',2009,#135);
#135=APPLICATION_CONTEXT(
'Core Data for Automotive Mechanical Design Process');
#136=PRODUCT_CONTEXT('part definition',#135,'mechanical');
#137=PRODUCT('rubber_feet','rubber_feet v2',$,(#136));
#138=PRESENTATION_STYLE_ASSIGNMENT((#140));
#139=PRESENTATION_STYLE_ASSIGNMENT((#141));
#140=SURFACE_STYLE_USAGE(.BOTH.,#142);
#141=SURFACE_STYLE_USAGE(.BOTH.,#143);
#142=SURFACE_SIDE_STYLE('',(#144));
#143=SURFACE_SIDE_STYLE('',(#145));
#144=SURFACE_STYLE_FILL_AREA(#146);
#145=SURFACE_STYLE_FILL_AREA(#147);
#146=FILL_AREA_STYLE('\X2\92FC\X0\ - \X2\30B530C630F3\X0\',(#148));
#147=FILL_AREA_STYLE('\X2\30B430E0\X0\ - \X2\30CF30FC30C9\X0\',(#149));
#148=FILL_AREA_STYLE_COLOUR('\X2\92FC\X0\ - \X2\30B530C630F3\X0\',#150);
#149=FILL_AREA_STYLE_COLOUR('\X2\30B430E0\X0\ - \X2\30CF30FC30C9\X0\',#151);
#150=COLOUR_RGB('\X2\92FC\X0\ - \X2\30B530C630F3\X0\',0.627450980392157,
0.627450980392157,0.627450980392157);
#151=COLOUR_RGB('\X2\30B430E0\X0\ - \X2\30CF30FC30C9\X0\',0.152941176470588,
0.152941176470588,0.152941176470588);
ENDSEC;
END-ISO-10303-21;
