ISO-10303-21;
HEADER;
/* Generated by software containing ST-Developer
 * from STEP Tools, Inc. (www.steptools.com) 
 */

FILE_DESCRIPTION(
/* description */ (''),
/* implementation_level */ '2;1');

FILE_NAME(
/* name */ 'Terminal_RED.step',
/* time_stamp */ '2024-07-12T16:33:02+09:00',
/* author */ (''),
/* organization */ (''),
/* preprocessor_version */ 'ST-DEVELOPER v20',
/* originating_system */ 'Autodesk Translation Framework v13.14.0.145',

/* authorisation */ '');

FILE_SCHEMA (('AUTOMOTIVE_DESIGN { 1 0 10303 214 3 1 1 }'));
ENDSEC;

DATA;
#10=MECHANICAL_DESIGN_GEOMETRIC_PRESENTATION_REPRESENTATION('',(#195,#196,
#197,#198,#199,#200,#201,#202,#203,#204,#205,#206,#207,#208),#411);
#11=SHAPE_REPRESENTATION_RELATIONSHIP('SRR','None',#418,#12);
#12=ADVANCED_BREP_SHAPE_REPRESENTATION('',(#13),#410);
#13=MANIFOLD_SOLID_BREP('\X2\30DC30C730A3\X0\1',#224);
#14=FACE_BOUND('',#69,.T.);
#15=FACE_BOUND('',#72,.T.);
#16=FACE_BOUND('',#75,.T.);
#17=FACE_BOUND('',#78,.T.);
#18=PLANE('',#252);
#19=PLANE('',#256);
#20=PLANE('',#260);
#21=PLANE('',#263);
#22=PLANE('',#268);
#23=PLANE('',#271);
#24=CYLINDRICAL_SURFACE('',#250,1.954);
#25=CYLINDRICAL_SURFACE('',#253,3.4);
#26=CYLINDRICAL_SURFACE('',#261,5.5);
#27=CYLINDRICAL_SURFACE('',#266,5.75);
#28=CYLINDRICAL_SURFACE('',#269,5.5);
#29=LINE('',#364,#36);
#30=LINE('',#370,#37);
#31=LINE('',#374,#38);
#32=LINE('',#381,#39);
#33=LINE('',#391,#40);
#34=LINE('',#401,#41);
#35=LINE('',#405,#42);
#36=VECTOR('',#290,5.75);
#37=VECTOR('',#297,1.454);
#38=VECTOR('',#302,1.9);
#39=VECTOR('',#311,3.4);
#40=VECTOR('',#326,5.5);
#41=VECTOR('',#339,5.75);
#42=VECTOR('',#344,5.5);
#43=CONICAL_SURFACE('',#244,5.75,0.038442590021188);
#44=CONICAL_SURFACE('',#247,1.454,0.785398163397448);
#45=FACE_OUTER_BOUND('',#60,.T.);
#46=FACE_OUTER_BOUND('',#61,.T.);
#47=FACE_OUTER_BOUND('',#62,.T.);
#48=FACE_OUTER_BOUND('',#63,.T.);
#49=FACE_OUTER_BOUND('',#64,.T.);
#50=FACE_OUTER_BOUND('',#65,.T.);
#51=FACE_OUTER_BOUND('',#66,.T.);
#52=FACE_OUTER_BOUND('',#67,.T.);
#53=FACE_OUTER_BOUND('',#68,.T.);
#54=FACE_OUTER_BOUND('',#70,.T.);
#55=FACE_OUTER_BOUND('',#71,.T.);
#56=FACE_OUTER_BOUND('',#73,.T.);
#57=FACE_OUTER_BOUND('',#74,.T.);
#58=FACE_OUTER_BOUND('',#76,.T.);
#59=FACE_OUTER_BOUND('',#77,.T.);
#60=EDGE_LOOP('',(#141,#142,#143,#144,#145,#146));
#61=EDGE_LOOP('',(#147,#148,#149,#150,#151,#152));
#62=EDGE_LOOP('',(#153,#154,#155,#156));
#63=EDGE_LOOP('',(#157,#158,#159,#160));
#64=EDGE_LOOP('',(#161));
#65=EDGE_LOOP('',(#162,#163,#164,#165));
#66=EDGE_LOOP('',(#166));
#67=EDGE_LOOP('',(#167,#168,#169,#170,#171));
#68=EDGE_LOOP('',(#172));
#69=EDGE_LOOP('',(#173));
#70=EDGE_LOOP('',(#174,#175,#176,#177,#178));
#71=EDGE_LOOP('',(#179));
#72=EDGE_LOOP('',(#180));
#73=EDGE_LOOP('',(#181,#182,#183,#184));
#74=EDGE_LOOP('',(#185));
#75=EDGE_LOOP('',(#186));
#76=EDGE_LOOP('',(#187,#188,#189,#190));
#77=EDGE_LOOP('',(#191));
#78=EDGE_LOOP('',(#192));
#79=CIRCLE('',#239,5.98004489175698);
#80=CIRCLE('',#240,5.98004489175698);
#81=CIRCLE('',#241,0.5);
#82=CIRCLE('',#242,5.5);
#83=CIRCLE('',#243,5.5);
#84=CIRCLE('',#245,5.57396668291529);
#85=CIRCLE('',#246,5.57396668291529);
#86=CIRCLE('',#248,0.954);
#87=CIRCLE('',#249,1.954);
#88=CIRCLE('',#251,1.954);
#89=CIRCLE('',#254,3.4);
#90=CIRCLE('',#255,3.4);
#91=CIRCLE('',#258,2.);
#92=CIRCLE('',#259,3.57544433365266);
#93=CIRCLE('',#262,5.5);
#94=CIRCLE('',#264,5.75);
#95=CIRCLE('',#265,5.5);
#96=CIRCLE('',#267,5.75);
#97=CIRCLE('',#270,5.5);
#98=VERTEX_POINT('',#351);
#99=VERTEX_POINT('',#352);
#100=VERTEX_POINT('',#355);
#101=VERTEX_POINT('',#357);
#102=VERTEX_POINT('',#361);
#103=VERTEX_POINT('',#362);
#104=VERTEX_POINT('',#367);
#105=VERTEX_POINT('',#369);
#106=VERTEX_POINT('',#373);
#107=VERTEX_POINT('',#378);
#108=VERTEX_POINT('',#380);
#109=VERTEX_POINT('',#385);
#110=VERTEX_POINT('',#390);
#111=VERTEX_POINT('',#394);
#112=VERTEX_POINT('',#396);
#113=VERTEX_POINT('',#399);
#114=VERTEX_POINT('',#404);
#115=EDGE_CURVE('',#98,#99,#79,.T.);
#116=EDGE_CURVE('',#99,#98,#80,.T.);
#117=EDGE_CURVE('',#98,#100,#81,.T.);
#118=EDGE_CURVE('',#100,#101,#82,.T.);
#119=EDGE_CURVE('',#101,#100,#83,.T.);
#120=EDGE_CURVE('',#102,#103,#84,.T.);
#121=EDGE_CURVE('',#102,#99,#29,.T.);
#122=EDGE_CURVE('',#103,#102,#85,.T.);
#123=EDGE_CURVE('',#104,#104,#86,.T.);
#124=EDGE_CURVE('',#104,#105,#30,.T.);
#125=EDGE_CURVE('',#105,#105,#87,.T.);
#126=EDGE_CURVE('',#105,#106,#31,.T.);
#127=EDGE_CURVE('',#106,#106,#88,.F.);
#128=EDGE_CURVE('',#107,#107,#89,.T.);
#129=EDGE_CURVE('',#107,#108,#32,.T.);
#130=EDGE_CURVE('',#108,#108,#90,.T.);
#131=EDGE_CURVE('',#103,#109,#91,.T.);
#132=EDGE_CURVE('',#109,#109,#92,.T.);
#133=EDGE_CURVE('',#101,#110,#33,.T.);
#134=EDGE_CURVE('',#110,#110,#93,.T.);
#135=EDGE_CURVE('',#111,#111,#94,.T.);
#136=EDGE_CURVE('',#112,#112,#95,.T.);
#137=EDGE_CURVE('',#113,#113,#96,.T.);
#138=EDGE_CURVE('',#113,#111,#34,.T.);
#139=EDGE_CURVE('',#112,#114,#35,.T.);
#140=EDGE_CURVE('',#114,#114,#97,.T.);
#141=ORIENTED_EDGE('',*,*,#115,.T.);
#142=ORIENTED_EDGE('',*,*,#116,.T.);
#143=ORIENTED_EDGE('',*,*,#117,.T.);
#144=ORIENTED_EDGE('',*,*,#118,.T.);
#145=ORIENTED_EDGE('',*,*,#119,.T.);
#146=ORIENTED_EDGE('',*,*,#117,.F.);
#147=ORIENTED_EDGE('',*,*,#120,.F.);
#148=ORIENTED_EDGE('',*,*,#121,.T.);
#149=ORIENTED_EDGE('',*,*,#115,.F.);
#150=ORIENTED_EDGE('',*,*,#116,.F.);
#151=ORIENTED_EDGE('',*,*,#121,.F.);
#152=ORIENTED_EDGE('',*,*,#122,.F.);
#153=ORIENTED_EDGE('',*,*,#123,.T.);
#154=ORIENTED_EDGE('',*,*,#124,.T.);
#155=ORIENTED_EDGE('',*,*,#125,.T.);
#156=ORIENTED_EDGE('',*,*,#124,.F.);
#157=ORIENTED_EDGE('',*,*,#125,.F.);
#158=ORIENTED_EDGE('',*,*,#126,.T.);
#159=ORIENTED_EDGE('',*,*,#127,.F.);
#160=ORIENTED_EDGE('',*,*,#126,.F.);
#161=ORIENTED_EDGE('',*,*,#123,.F.);
#162=ORIENTED_EDGE('',*,*,#128,.F.);
#163=ORIENTED_EDGE('',*,*,#129,.T.);
#164=ORIENTED_EDGE('',*,*,#130,.T.);
#165=ORIENTED_EDGE('',*,*,#129,.F.);
#166=ORIENTED_EDGE('',*,*,#130,.F.);
#167=ORIENTED_EDGE('',*,*,#120,.T.);
#168=ORIENTED_EDGE('',*,*,#131,.T.);
#169=ORIENTED_EDGE('',*,*,#132,.T.);
#170=ORIENTED_EDGE('',*,*,#131,.F.);
#171=ORIENTED_EDGE('',*,*,#122,.T.);
#172=ORIENTED_EDGE('',*,*,#132,.F.);
#173=ORIENTED_EDGE('',*,*,#128,.T.);
#174=ORIENTED_EDGE('',*,*,#118,.F.);
#175=ORIENTED_EDGE('',*,*,#119,.F.);
#176=ORIENTED_EDGE('',*,*,#133,.T.);
#177=ORIENTED_EDGE('',*,*,#134,.F.);
#178=ORIENTED_EDGE('',*,*,#133,.F.);
#179=ORIENTED_EDGE('',*,*,#135,.F.);
#180=ORIENTED_EDGE('',*,*,#136,.T.);
#181=ORIENTED_EDGE('',*,*,#137,.F.);
#182=ORIENTED_EDGE('',*,*,#138,.T.);
#183=ORIENTED_EDGE('',*,*,#135,.T.);
#184=ORIENTED_EDGE('',*,*,#138,.F.);
#185=ORIENTED_EDGE('',*,*,#137,.T.);
#186=ORIENTED_EDGE('',*,*,#134,.T.);
#187=ORIENTED_EDGE('',*,*,#136,.F.);
#188=ORIENTED_EDGE('',*,*,#139,.T.);
#189=ORIENTED_EDGE('',*,*,#140,.T.);
#190=ORIENTED_EDGE('',*,*,#139,.F.);
#191=ORIENTED_EDGE('',*,*,#140,.F.);
#192=ORIENTED_EDGE('',*,*,#127,.T.);
#193=TOROIDAL_SURFACE('',#238,5.48041430444132,0.5);
#194=TOROIDAL_SURFACE('',#257,3.57544433365266,2.);
#195=STYLED_ITEM('',(#428),#209);
#196=STYLED_ITEM('',(#428),#210);
#197=STYLED_ITEM('',(#429),#211);
#198=STYLED_ITEM('',(#429),#212);
#199=STYLED_ITEM('',(#429),#213);
#200=STYLED_ITEM('',(#428),#214);
#201=STYLED_ITEM('',(#429),#215);
#202=STYLED_ITEM('',(#428),#216);
#203=STYLED_ITEM('',(#428),#217);
#204=STYLED_ITEM('',(#429),#218);
#205=STYLED_ITEM('',(#428),#220);
#206=STYLED_ITEM('',(#429),#222);
#207=STYLED_ITEM('',(#429),#223);
#208=STYLED_ITEM('',(#427),#13);
#209=ADVANCED_FACE('',(#45),#193,.T.);
#210=ADVANCED_FACE('',(#46),#43,.T.);
#211=ADVANCED_FACE('',(#47),#44,.T.);
#212=ADVANCED_FACE('',(#48),#24,.T.);
#213=ADVANCED_FACE('',(#49),#18,.T.);
#214=ADVANCED_FACE('',(#50),#25,.F.);
#215=ADVANCED_FACE('',(#51),#19,.T.);
#216=ADVANCED_FACE('',(#52),#194,.T.);
#217=ADVANCED_FACE('',(#53,#14),#20,.T.);
#218=ADVANCED_FACE('',(#54),#26,.T.);
#219=ADVANCED_FACE('',(#55,#15),#21,.F.);
#220=ADVANCED_FACE('',(#56),#27,.T.);
#221=ADVANCED_FACE('',(#57,#16),#22,.T.);
#222=ADVANCED_FACE('',(#58),#28,.T.);
#223=ADVANCED_FACE('',(#59,#17),#23,.F.);
#224=CLOSED_SHELL('',(#209,#210,#211,#212,#213,#214,#215,#216,#217,#218,
#219,#220,#221,#222,#223));
#225=DERIVED_UNIT_ELEMENT(#227,1.);
#226=DERIVED_UNIT_ELEMENT(#413,-3.);
#227=(
MASS_UNIT()
NAMED_UNIT(*)
SI_UNIT(.KILO.,.GRAM.)
);
#228=DERIVED_UNIT((#225,#226));
#229=MEASURE_REPRESENTATION_ITEM('density measure',
POSITIVE_RATIO_MEASURE(7850.),#228);
#230=PROPERTY_DEFINITION_REPRESENTATION(#235,#232);
#231=PROPERTY_DEFINITION_REPRESENTATION(#236,#233);
#232=REPRESENTATION('material name',(#234),#410);
#233=REPRESENTATION('density',(#229),#410);
#234=DESCRIPTIVE_REPRESENTATION_ITEM('\X2\92FC\X0\','\X2\92FC\X0\');
#235=PROPERTY_DEFINITION('material property','material name',#420);
#236=PROPERTY_DEFINITION('material property','density of part',#420);
#237=AXIS2_PLACEMENT_3D('',#349,#272,#273);
#238=AXIS2_PLACEMENT_3D('',#350,#274,#275);
#239=AXIS2_PLACEMENT_3D('',#353,#276,#277);
#240=AXIS2_PLACEMENT_3D('',#354,#278,#279);
#241=AXIS2_PLACEMENT_3D('',#356,#280,#281);
#242=AXIS2_PLACEMENT_3D('',#358,#282,#283);
#243=AXIS2_PLACEMENT_3D('',#359,#284,#285);
#244=AXIS2_PLACEMENT_3D('',#360,#286,#287);
#245=AXIS2_PLACEMENT_3D('',#363,#288,#289);
#246=AXIS2_PLACEMENT_3D('',#365,#291,#292);
#247=AXIS2_PLACEMENT_3D('',#366,#293,#294);
#248=AXIS2_PLACEMENT_3D('',#368,#295,#296);
#249=AXIS2_PLACEMENT_3D('',#371,#298,#299);
#250=AXIS2_PLACEMENT_3D('',#372,#300,#301);
#251=AXIS2_PLACEMENT_3D('',#375,#303,#304);
#252=AXIS2_PLACEMENT_3D('',#376,#305,#306);
#253=AXIS2_PLACEMENT_3D('',#377,#307,#308);
#254=AXIS2_PLACEMENT_3D('',#379,#309,#310);
#255=AXIS2_PLACEMENT_3D('',#382,#312,#313);
#256=AXIS2_PLACEMENT_3D('',#383,#314,#315);
#257=AXIS2_PLACEMENT_3D('',#384,#316,#317);
#258=AXIS2_PLACEMENT_3D('',#386,#318,#319);
#259=AXIS2_PLACEMENT_3D('',#387,#320,#321);
#260=AXIS2_PLACEMENT_3D('',#388,#322,#323);
#261=AXIS2_PLACEMENT_3D('',#389,#324,#325);
#262=AXIS2_PLACEMENT_3D('',#392,#327,#328);
#263=AXIS2_PLACEMENT_3D('',#393,#329,#330);
#264=AXIS2_PLACEMENT_3D('',#395,#331,#332);
#265=AXIS2_PLACEMENT_3D('',#397,#333,#334);
#266=AXIS2_PLACEMENT_3D('',#398,#335,#336);
#267=AXIS2_PLACEMENT_3D('',#400,#337,#338);
#268=AXIS2_PLACEMENT_3D('',#402,#340,#341);
#269=AXIS2_PLACEMENT_3D('',#403,#342,#343);
#270=AXIS2_PLACEMENT_3D('',#406,#345,#346);
#271=AXIS2_PLACEMENT_3D('',#407,#347,#348);
#272=DIRECTION('axis',(0.,0.,1.));
#273=DIRECTION('refdir',(1.,0.,0.));
#274=DIRECTION('center_axis',(0.,0.,1.));
#275=DIRECTION('ref_axis',(-1.,0.,0.));
#276=DIRECTION('center_axis',(0.,0.,-1.));
#277=DIRECTION('ref_axis',(-1.,0.,0.));
#278=DIRECTION('center_axis',(0.,0.,-1.));
#279=DIRECTION('ref_axis',(-1.,0.,0.));
#280=DIRECTION('center_axis',(1.22464679914735E-16,1.,0.));
#281=DIRECTION('ref_axis',(1.,-1.22464679914735E-16,0.));
#282=DIRECTION('center_axis',(0.,0.,1.));
#283=DIRECTION('ref_axis',(1.,0.,0.));
#284=DIRECTION('center_axis',(0.,0.,1.));
#285=DIRECTION('ref_axis',(1.,0.,0.));
#286=DIRECTION('center_axis',(0.,0.,-1.));
#287=DIRECTION('ref_axis',(1.,0.,0.));
#288=DIRECTION('center_axis',(0.,0.,1.));
#289=DIRECTION('ref_axis',(1.,6.12323399573677E-17,0.));
#290=DIRECTION('',(-0.0384331221012044,-4.70669999624794E-18,-0.999261174631314));
#291=DIRECTION('center_axis',(0.,0.,1.));
#292=DIRECTION('ref_axis',(1.,6.12323399573677E-17,0.));
#293=DIRECTION('center_axis',(0.,0.,1.));
#294=DIRECTION('ref_axis',(-1.,0.,0.));
#295=DIRECTION('center_axis',(0.,0.,1.));
#296=DIRECTION('ref_axis',(-1.,0.,0.));
#297=DIRECTION('',(0.707106781186547,-8.65956056235493E-17,0.707106781186548));
#298=DIRECTION('center_axis',(0.,0.,-1.));
#299=DIRECTION('ref_axis',(-1.,0.,0.));
#300=DIRECTION('center_axis',(0.,0.,-1.));
#301=DIRECTION('ref_axis',(-1.,0.,0.));
#302=DIRECTION('',(0.,0.,1.));
#303=DIRECTION('center_axis',(0.,0.,-1.));
#304=DIRECTION('ref_axis',(-1.,0.,0.));
#305=DIRECTION('center_axis',(0.,0.,-1.));
#306=DIRECTION('ref_axis',(-1.,0.,0.));
#307=DIRECTION('center_axis',(0.,0.,-1.));
#308=DIRECTION('ref_axis',(1.,0.,0.));
#309=DIRECTION('center_axis',(0.,0.,-1.));
#310=DIRECTION('ref_axis',(1.,0.,0.));
#311=DIRECTION('',(0.,0.,-1.));
#312=DIRECTION('center_axis',(0.,0.,-1.));
#313=DIRECTION('ref_axis',(1.,0.,0.));
#314=DIRECTION('center_axis',(0.,0.,1.));
#315=DIRECTION('ref_axis',(1.,0.,0.));
#316=DIRECTION('center_axis',(0.,0.,-1.));
#317=DIRECTION('ref_axis',(-1.,0.,0.));
#318=DIRECTION('center_axis',(-1.22464679914735E-16,-1.,0.));
#319=DIRECTION('ref_axis',(1.,-1.22464679914735E-16,0.));
#320=DIRECTION('center_axis',(0.,0.,-1.));
#321=DIRECTION('ref_axis',(1.,0.,0.));
#322=DIRECTION('center_axis',(0.,0.,1.));
#323=DIRECTION('ref_axis',(1.,0.,0.));
#324=DIRECTION('center_axis',(0.,0.,1.));
#325=DIRECTION('ref_axis',(1.,0.,0.));
#326=DIRECTION('',(0.,0.,-1.));
#327=DIRECTION('center_axis',(0.,0.,-1.));
#328=DIRECTION('ref_axis',(1.,0.,0.));
#329=DIRECTION('center_axis',(0.,0.,1.));
#330=DIRECTION('ref_axis',(1.,0.,0.));
#331=DIRECTION('center_axis',(0.,0.,1.));
#332=DIRECTION('ref_axis',(1.,0.,0.));
#333=DIRECTION('center_axis',(0.,0.,1.));
#334=DIRECTION('ref_axis',(1.,0.,0.));
#335=DIRECTION('center_axis',(0.,0.,1.));
#336=DIRECTION('ref_axis',(1.,0.,0.));
#337=DIRECTION('center_axis',(0.,0.,1.));
#338=DIRECTION('ref_axis',(1.,0.,0.));
#339=DIRECTION('',(0.,0.,-1.));
#340=DIRECTION('center_axis',(0.,0.,1.));
#341=DIRECTION('ref_axis',(1.,0.,0.));
#342=DIRECTION('center_axis',(0.,0.,1.));
#343=DIRECTION('ref_axis',(1.,0.,0.));
#344=DIRECTION('',(0.,0.,-1.));
#345=DIRECTION('center_axis',(0.,0.,1.));
#346=DIRECTION('ref_axis',(1.,0.,0.));
#347=DIRECTION('center_axis',(0.,0.,1.));
#348=DIRECTION('ref_axis',(1.,0.,0.));
#349=CARTESIAN_POINT('',(0.,0.,0.));
#350=CARTESIAN_POINT('Origin',(0.,0.,9.29961625326793));
#351=CARTESIAN_POINT('',(5.98004489175698,-7.32344283544767E-16,9.31883281431853));
#352=CARTESIAN_POINT('',(-5.98004489175698,-7.32344283544767E-16,9.31883281431853));
#353=CARTESIAN_POINT('Origin',(0.,0.,9.31883281431853));
#354=CARTESIAN_POINT('Origin',(0.,0.,9.31883281431853));
#355=CARTESIAN_POINT('',(5.5,-6.73555739531044E-16,8.8));
#356=CARTESIAN_POINT('Origin',(5.48041430444132,-6.71157183593543E-16,9.29961625326793));
#357=CARTESIAN_POINT('',(-5.5,-6.73555739531044E-16,8.8));
#358=CARTESIAN_POINT('Origin',(0.,0.,8.8));
#359=CARTESIAN_POINT('Origin',(0.,0.,8.8));
#360=CARTESIAN_POINT('Origin',(0.,0.,15.3));
#361=CARTESIAN_POINT('',(-5.57396668291529,-1.36522809135724E-15,19.8768662442024));
#362=CARTESIAN_POINT('',(5.57396668291529,-6.8261404567862E-16,19.8768662442024));
#363=CARTESIAN_POINT('Origin',(0.,-3.4130702283931E-16,19.8768662442024));
#364=CARTESIAN_POINT('',(-5.75,-7.04171909509728E-16,15.3));
#365=CARTESIAN_POINT('Origin',(0.,-3.4130702283931E-16,19.8768662442024));
#366=CARTESIAN_POINT('Origin',(0.,0.,-12.5));
#367=CARTESIAN_POINT('',(0.954,1.16831304638658E-16,-13.));
#368=CARTESIAN_POINT('Origin',(0.,0.,-13.));
#369=CARTESIAN_POINT('',(1.954,-2.39295984553393E-16,-12.));
#370=CARTESIAN_POINT('',(1.454,-1.78063644596025E-16,-12.5));
#371=CARTESIAN_POINT('Origin',(0.,0.,-12.));
#372=CARTESIAN_POINT('Origin',(0.,0.,0.));
#373=CARTESIAN_POINT('',(1.954,-2.39295984553393E-16,0.));
#374=CARTESIAN_POINT('',(1.954,-2.39295984553393E-16,0.));
#375=CARTESIAN_POINT('Origin',(0.,0.,0.));
#376=CARTESIAN_POINT('Origin',(0.,0.,-13.));
#377=CARTESIAN_POINT('Origin',(0.,0.,21.8));
#378=CARTESIAN_POINT('',(-3.4,-4.163799117101E-16,21.8));
#379=CARTESIAN_POINT('Origin',(0.,0.,21.8));
#380=CARTESIAN_POINT('',(-3.4,-4.163799117101E-16,15.8));
#381=CARTESIAN_POINT('',(-3.4,4.163799117101E-16,21.8));
#382=CARTESIAN_POINT('Origin',(0.,0.,15.8));
#383=CARTESIAN_POINT('Origin',(0.,0.,15.8));
#384=CARTESIAN_POINT('Origin',(0.,0.,19.8));
#385=CARTESIAN_POINT('',(3.57544433365266,-4.37865645873728E-16,21.8));
#386=CARTESIAN_POINT('Origin',(3.57544433365266,-4.37865645873728E-16,19.8));
#387=CARTESIAN_POINT('Origin',(0.,0.,21.8));
#388=CARTESIAN_POINT('Origin',(0.,0.,21.8));
#389=CARTESIAN_POINT('Origin',(0.,0.,7.8));
#390=CARTESIAN_POINT('',(-5.5,-6.73555739531044E-16,7.8));
#391=CARTESIAN_POINT('',(-5.5,-6.73555739531044E-16,7.8));
#392=CARTESIAN_POINT('Origin',(0.,0.,7.8));
#393=CARTESIAN_POINT('Origin',(0.,0.,1.));
#394=CARTESIAN_POINT('',(-5.75,-7.04171909509728E-16,1.));
#395=CARTESIAN_POINT('Origin',(0.,0.,1.));
#396=CARTESIAN_POINT('',(-5.5,-6.73555739531044E-16,1.));
#397=CARTESIAN_POINT('Origin',(0.,0.,1.));
#398=CARTESIAN_POINT('Origin',(0.,0.,1.));
#399=CARTESIAN_POINT('',(-5.75,-7.04171909509728E-16,7.8));
#400=CARTESIAN_POINT('Origin',(0.,0.,7.8));
#401=CARTESIAN_POINT('',(-5.75,-7.04171909509728E-16,1.));
#402=CARTESIAN_POINT('Origin',(0.,0.,7.8));
#403=CARTESIAN_POINT('Origin',(0.,0.,0.));
#404=CARTESIAN_POINT('',(-5.5,-6.73555739531044E-16,0.));
#405=CARTESIAN_POINT('',(-5.5,-6.73555739531044E-16,0.));
#406=CARTESIAN_POINT('Origin',(0.,0.,0.));
#407=CARTESIAN_POINT('Origin',(0.,0.,0.));
#408=UNCERTAINTY_MEASURE_WITH_UNIT(LENGTH_MEASURE(0.01),#412,
'DISTANCE_ACCURACY_VALUE',
'Maximum model space distance between geometric entities at asserted c
onnectivities');
#409=UNCERTAINTY_MEASURE_WITH_UNIT(LENGTH_MEASURE(0.01),#412,
'DISTANCE_ACCURACY_VALUE',
'Maximum model space distance between geometric entities at asserted c
onnectivities');
#410=(
GEOMETRIC_REPRESENTATION_CONTEXT(3)
GLOBAL_UNCERTAINTY_ASSIGNED_CONTEXT((#408))
GLOBAL_UNIT_ASSIGNED_CONTEXT((#412,#414,#415))
REPRESENTATION_CONTEXT('','3D')
);
#411=(
GEOMETRIC_REPRESENTATION_CONTEXT(3)
GLOBAL_UNCERTAINTY_ASSIGNED_CONTEXT((#409))
GLOBAL_UNIT_ASSIGNED_CONTEXT((#412,#414,#415))
REPRESENTATION_CONTEXT('','3D')
);
#412=(
LENGTH_UNIT()
NAMED_UNIT(*)
SI_UNIT(.MILLI.,.METRE.)
);
#413=(
LENGTH_UNIT()
NAMED_UNIT(*)
SI_UNIT($,.METRE.)
);
#414=(
NAMED_UNIT(*)
PLANE_ANGLE_UNIT()
SI_UNIT($,.RADIAN.)
);
#415=(
NAMED_UNIT(*)
SI_UNIT($,.STERADIAN.)
SOLID_ANGLE_UNIT()
);
#416=SHAPE_DEFINITION_REPRESENTATION(#417,#418);
#417=PRODUCT_DEFINITION_SHAPE('',$,#420);
#418=SHAPE_REPRESENTATION('',(#237),#410);
#419=PRODUCT_DEFINITION_CONTEXT('part definition',#424,'design');
#420=PRODUCT_DEFINITION('Terminal_RED','Terminal_RED v3',#421,#419);
#421=PRODUCT_DEFINITION_FORMATION('',$,#426);
#422=PRODUCT_RELATED_PRODUCT_CATEGORY('Terminal_RED v3',
'Terminal_RED v3',(#426));
#423=APPLICATION_PROTOCOL_DEFINITION('international standard',
'automotive_design',2009,#424);
#424=APPLICATION_CONTEXT(
'Core Data for Automotive Mechanical Design Process');
#425=PRODUCT_CONTEXT('part definition',#424,'mechanical');
#426=PRODUCT('Terminal_RED','Terminal_RED v3',$,(#425));
#427=PRESENTATION_STYLE_ASSIGNMENT((#430));
#428=PRESENTATION_STYLE_ASSIGNMENT((#431));
#429=PRESENTATION_STYLE_ASSIGNMENT((#432));
#430=SURFACE_STYLE_USAGE(.BOTH.,#433);
#431=SURFACE_STYLE_USAGE(.BOTH.,#434);
#432=SURFACE_STYLE_USAGE(.BOTH.,#435);
#433=SURFACE_SIDE_STYLE('',(#436));
#434=SURFACE_SIDE_STYLE('',(#437));
#435=SURFACE_SIDE_STYLE('',(#438));
#436=SURFACE_STYLE_FILL_AREA(#439);
#437=SURFACE_STYLE_FILL_AREA(#440);
#438=SURFACE_STYLE_FILL_AREA(#441);
#439=FILL_AREA_STYLE('\X2\92FC\X0\ - \X2\30B530C630F3\X0\',(#442));
#440=FILL_AREA_STYLE('\X2\30D730E930B930C130C330AF\X0\ - \X2\30DE30C330C8\X0\(
\X2\8D64\X0\)',(#443));
#441=FILL_AREA_STYLE('\X2\30AF30ED30E0\X0\',(#444));
#442=FILL_AREA_STYLE_COLOUR('\X2\92FC\X0\ - \X2\30B530C630F3\X0\',#445);
#443=FILL_AREA_STYLE_COLOUR('\X2\30D730E930B930C130C330AF\X0\ - \X2\30DE30C330C8\X0\(
\X2\8D64\X0\)',#446);
#444=FILL_AREA_STYLE_COLOUR('\X2\30AF30ED30E0\X0\',#447);
#445=COLOUR_RGB('\X2\92FC\X0\ - \X2\30B530C630F3\X0\',0.627450980392157,
0.627450980392157,0.627450980392157);
#446=COLOUR_RGB('\X2\30D730E930B930C130C330AF\X0\ - \X2\30DE30C330C8\X0\(
\X2\8D64\X0\)',0.768627450980392,0.207843137254902,0.152941176470588);
#447=COLOUR_RGB('\X2\30AF30ED30E0\X0\',0.768627450980392,0.772549019607843,
0.768627450980392);
ENDSEC;
END-ISO-10303-21;
